ISO-10303-21;
HEADER;
FILE_DESCRIPTION (( 'STEP AP203' ),
    '1' );
FILE_NAME ('Q-AZHWP-20-266-M.STEP',
    '2020-12-22T09:08:05',
    ( '' ),
    ( '' ),
    'SwSTEP 2.0',
    'SolidWorks 2020',
    '' );
FILE_SCHEMA (( 'CONFIG_CONTROL_DESIGN' ));
ENDSEC;

DATA;
#1 = LINE ( 'NONE', #54, #205 ) ;
#2 = COORDINATED_UNIVERSAL_TIME_OFFSET ( 8, 0, .AHEAD. ) ;
#3 = CARTESIAN_POINT ( 'NONE',  ( 2.500000000000000888, 0.000000000000000000, 0.000000000000000000 ) ) ;
#4 = AXIS2_PLACEMENT_3D ( 'NONE', #316, #290, #166 ) ;
#5 = DIRECTION ( 'NONE',  ( -1.000000000000000000, -0.000000000000000000, -0.000000000000000000 ) ) ;
#6 = CARTESIAN_POINT ( 'NONE',  ( -2.500000000000000444, 10.00000000000000000, 0.000000000000000000 ) ) ;
#7 = AXIS2_PLACEMENT_3D ( 'NONE', #255, #278, #20 ) ;
#8 = VERTEX_POINT ( 'NONE', #45 ) ;
#9 = LOCAL_TIME ( 17, 8, 5.000000000000000000, #39 ) ;
#10 = DIRECTION ( 'NONE',  ( -1.000000000000000000, -0.000000000000000000, -0.000000000000000000 ) ) ;
#11 = CC_DESIGN_PERSON_AND_ORGANIZATION_ASSIGNMENT ( #107, #220, ( #200 ) ) ;
#12 = CARTESIAN_POINT ( 'NONE',  ( -1.614212418857619014, 0.000000000000000000, 10.00000000000000000 ) ) ;
#13 = ORIENTED_EDGE ( 'NONE', *, *, #50, .F. ) ;
#14 = VECTOR ( 'NONE', #5, 1000.000000000000000 ) ;
#15 = VERTEX_POINT ( 'NONE', #44 ) ;
#16 = FACE_BOUND ( 'NONE', #33, .T. ) ;
#17 = DIRECTION ( 'NONE',  ( 0.000000000000000000, 0.000000000000000000, 1.000000000000000000 ) ) ;
#18 = PERSON ( 'UNSPECIFIED', 'UNSPECIFIED', 'UNSPECIFIED', ('UNSPECIFIED'), ('UNSPECIFIED'), ('UNSPECIFIED') ) ;
#19 = COORDINATED_UNIVERSAL_TIME_OFFSET ( 8, 0, .AHEAD. ) ;
#20 = DIRECTION ( 'NONE',  ( 0.000000000000000000, 0.000000000000000000, 1.000000000000000000 ) ) ;
#21 = EDGE_CURVE ( 'NONE', #227, #326, #154, .T. ) ;
#22 = EDGE_LOOP ( 'NONE', ( #128, #197, #182, #237 ) ) ;
#23 = DIRECTION ( 'NONE',  ( -1.000000000000000000, -0.000000000000000000, -0.000000000000000000 ) ) ;
#24 = COORDINATED_UNIVERSAL_TIME_OFFSET ( 8, 0, .AHEAD. ) ;
#25 = CARTESIAN_POINT ( 'NONE',  ( -3.000000000000000000, 10.00000000000000000, 0.000000000000000000 ) ) ;
#26 = DIRECTION ( 'NONE',  ( -1.000000000000000000, -0.000000000000000000, -0.000000000000000000 ) ) ;
#27 = DIRECTION ( 'NONE',  ( -1.000000000000000000, -0.000000000000000000, -0.000000000000000000 ) ) ;
#28 = PERSON_AND_ORGANIZATION ( #18, #153 ) ;
#29 = CARTESIAN_POINT ( 'NONE',  ( 2.999999999999999112, 0.000000000000000000, 0.000000000000000000 ) ) ;
#30 = VECTOR ( 'NONE', #120, 1000.000000000000000 ) ;
#31 = LINE ( 'NONE', #191, #30 ) ;
#32 = DIRECTION ( 'NONE',  ( -0.000000000000000000, 0.000000000000000000, 1.000000000000000000 ) ) ;
#33 = EDGE_LOOP ( 'NONE', ( #299, #96 ) ) ;
#34 = ADVANCED_FACE ( 'NONE', ( #131 ), #155, .T. ) ;
#35 = AXIS2_PLACEMENT_3D ( 'NONE', #78, #187, #265 ) ;
#36 = ORIENTED_EDGE ( 'NONE', *, *, #240, .F. ) ;
#37 = PRODUCT ( 'Q-AZHWP-20-266-M', 'Q-AZHWP-20-266-M', '', ( #230 ) ) ;
#38 = CC_DESIGN_PERSON_AND_ORGANIZATION_ASSIGNMENT ( #178, #43, ( #150 ) ) ;
#39 = COORDINATED_UNIVERSAL_TIME_OFFSET ( 8, 0, .AHEAD. ) ;
#40 = CIRCLE ( 'NONE', #86, 10.00000000000000000 ) ;
#41 = PRODUCT_DEFINITION_SHAPE ( 'NONE', 'NONE',  #150 ) ;
#42 = CIRCLE ( 'NONE', #271, 10.00000000000000000 ) ;
#43 = PERSON_AND_ORGANIZATION_ROLE ( 'creator' ) ;
#44 = CARTESIAN_POINT ( 'NONE',  ( -2.500000000000000444, 1.224646799147353256E-15, -10.00000000000000000 ) ) ;
#45 = CARTESIAN_POINT ( 'NONE',  ( 2.500000000000000888, 1.224646799147353256E-15, -10.00000000000000000 ) ) ;
#46 = ORIENTED_EDGE ( 'NONE', *, *, #168, .T. ) ;
#47 = AXIS2_PLACEMENT_3D ( 'NONE', #172, #143, #272 ) ;
#48 = CARTESIAN_POINT ( 'NONE',  ( -2.500000000000000444, 0.000000000000000000, 0.000000000000000000 ) ) ;
#49 = PLANE ( 'NONE',  #63 ) ;
#50 = EDGE_CURVE ( 'NONE', #15, #280, #80, .T. ) ;
#51 = CYLINDRICAL_SURFACE ( 'NONE', #35, 10.00000000000000000 ) ;
#52 = AXIS2_PLACEMENT_3D ( 'NONE', #113, #298, #219 ) ;
#53 = DIRECTION ( 'NONE',  ( 0.000000000000000000, 0.000000000000000000, 1.000000000000000000 ) ) ;
#54 = CARTESIAN_POINT ( 'NONE',  ( -1.614212418857619014, 0.000000000000000000, 12.69999999999999929 ) ) ;
#55 = EDGE_CURVE ( 'NONE', #227, #65, #93, .T. ) ;
#56 = CIRCLE ( 'NONE', #297, 10.00000000000000000 ) ;
#57 = CARTESIAN_POINT ( 'NONE',  ( 2.999999999999999112, 1.224646799147353256E-15, -10.00000000000000000 ) ) ;
#58 = CIRCLE ( 'NONE', #156, 10.00000000000000000 ) ;
#59 = ORIENTED_EDGE ( 'NONE', *, *, #55, .T. ) ;
#60 = ADVANCED_FACE ( 'NONE', ( #236 ), #177, .F. ) ;
#61 = CARTESIAN_POINT ( 'NONE',  ( -3.000000000000000000, 0.000000000000000000, 12.69999999999999929 ) ) ;
#62 = CARTESIAN_POINT ( 'NONE',  ( 2.500000000000000444, 10.00000000000000000, 0.000000000000000000 ) ) ;
#63 = AXIS2_PLACEMENT_3D ( 'NONE', #25, #112, #243 ) ;
#64 = ADVANCED_BREP_SHAPE_REPRESENTATION ( 'Q-AZHWP-20-266-M', ( #106, #181 ), #69 ) ;
#65 = VERTEX_POINT ( 'NONE', #327 ) ;
#66 = APPROVAL_DATE_TIME ( #305, #193 ) ;
#67 = ORIENTED_EDGE ( 'NONE', *, *, #259, .F. ) ;
#68 = AXIS2_PLACEMENT_3D ( 'NONE', #331, #258, #17 ) ;
#69 =( GEOMETRIC_REPRESENTATION_CONTEXT ( 3 ) GLOBAL_UNCERTAINTY_ASSIGNED_CONTEXT ( ( #226 ) ) GLOBAL_UNIT_ASSIGNED_CONTEXT ( ( #223, #115, #228 ) ) REPRESENTATION_CONTEXT ( 'NONE', 'WORKASPACE' ) );
#70 = PERSON_AND_ORGANIZATION_ROLE ( 'design_owner' ) ;
#71 = ORIENTED_EDGE ( 'NONE', *, *, #124, .F. ) ;
#72 = APPROVAL_ROLE ( '' ) ;
#73 = ORIENTED_EDGE ( 'NONE', *, *, #50, .T. ) ;
#74 = DIRECTION ( 'NONE',  ( 0.000000000000000000, 0.000000000000000000, 1.000000000000000000 ) ) ;
#75 = AXIS2_PLACEMENT_3D ( 'NONE', #48, #130, #157 ) ;
#76 = DIRECTION ( 'NONE',  ( 0.000000000000000000, 0.000000000000000000, 1.000000000000000000 ) ) ;
#77 = DIRECTION ( 'NONE',  ( -1.000000000000000000, -0.000000000000000000, -0.000000000000000000 ) ) ;
#78 = CARTESIAN_POINT ( 'NONE',  ( -1.614212418857619014, 0.000000000000000000, 0.000000000000000000 ) ) ;
#79 = APPROVAL_ROLE ( '' ) ;
#80 = CIRCLE ( 'NONE', #75, 10.00000000000000000 ) ;
#81 = CC_DESIGN_APPROVAL ( #193, ( #150 ) ) ;
#82 = DIRECTION ( 'NONE',  ( 0.000000000000000000, 0.000000000000000000, 1.000000000000000000 ) ) ;
#83 = CARTESIAN_POINT ( 'NONE',  ( 2.999999999999999112, 0.000000000000000000, 0.000000000000000000 ) ) ;
#84 = ADVANCED_FACE ( 'NONE', ( #203, #16 ), #180, .F. ) ;
#85 = PLANE ( 'NONE',  #94 ) ;
#86 = AXIS2_PLACEMENT_3D ( 'NONE', #83, #210, #53 ) ;
#87 = DIRECTION ( 'NONE',  ( 0.000000000000000000, 0.000000000000000000, -1.000000000000000000 ) ) ;
#88 = ORIENTED_EDGE ( 'NONE', *, *, #268, .F. ) ;
#89 = ADVANCED_FACE ( 'NONE', ( #335 ), #161, .F. ) ;
#90 = CARTESIAN_POINT ( 'NONE',  ( -1.614212418857619014, 1.224646799147353256E-15, -10.00000000000000000 ) ) ;
#91 = ORIENTED_EDGE ( 'NONE', *, *, #281, .F. ) ;
#92 = FACE_OUTER_BOUND ( 'NONE', #22, .T. ) ;
#93 = CIRCLE ( 'NONE', #68, 12.69999999999999929 ) ;
#94 = AXIS2_PLACEMENT_3D ( 'NONE', #6, #295, #249 ) ;
#95 = EDGE_LOOP ( 'NONE', ( #119, #171, #71, #36 ) ) ;
#96 = ORIENTED_EDGE ( 'NONE', *, *, #104, .T. ) ;
#97 = APPROVAL_PERSON_ORGANIZATION ( #325, #193, #72 ) ;
#98 = ORIENTED_EDGE ( 'NONE', *, *, #240, .T. ) ;
#99 = ORIENTED_EDGE ( 'NONE', *, *, #328, .T. ) ;
#100 = EDGE_LOOP ( 'NONE', ( #91, #73, #232, #199 ) ) ;
#101 = AXIS2_PLACEMENT_3D ( 'NONE', #313, #27, #82 ) ;
#102 = LOCAL_TIME ( 17, 8, 5.000000000000000000, #2 ) ;
#103 = CARTESIAN_POINT ( 'NONE',  ( -3.000000000000000000, 0.000000000000000000, 0.000000000000000000 ) ) ;
#104 = EDGE_CURVE ( 'NONE', #274, #235, #333, .T. ) ;
#105 = DIRECTION ( 'NONE',  ( 0.000000000000000000, 0.000000000000000000, 1.000000000000000000 ) ) ;
#106 = MANIFOLD_SOLID_BREP ( 'Ðý×', #179 ) ;
#107 = PERSON_AND_ORGANIZATION ( #18, #153 ) ;
#108 = CARTESIAN_POINT ( 'NONE',  ( -3.000000000000000444, 0.000000000000000000, 0.000000000000000000 ) ) ;
#109 = CALENDAR_DATE ( 2020, 22, 12 ) ;
#110 = CIRCLE ( 'NONE', #310, 12.69999999999999929 ) ;
#111 = LOCAL_TIME ( 17, 8, 5.000000000000000000, #320 ) ;
#112 = DIRECTION ( 'NONE',  ( 1.000000000000000000, 0.000000000000000000, 0.000000000000000000 ) ) ;
#113 = CARTESIAN_POINT ( 'NONE',  ( -1.614212418857619014, 0.000000000000000000, 0.000000000000000000 ) ) ;
#114 = SECURITY_CLASSIFICATION_LEVEL ( 'unclassified' ) ;
#115 =( NAMED_UNIT ( * ) PLANE_ANGLE_UNIT ( ) SI_UNIT ( $, .RADIAN. ) );
#116 = EDGE_CURVE ( 'NONE', #276, #304, #315, .T. ) ;
#117 = CYLINDRICAL_SURFACE ( 'NONE', #52, 10.00000000000000000 ) ;
#118 = CARTESIAN_POINT ( 'NONE',  ( -1.614212418857619014, 1.224646799147353256E-15, -10.00000000000000000 ) ) ;
#119 = ORIENTED_EDGE ( 'NONE', *, *, #217, .T. ) ;
#120 = DIRECTION ( 'NONE',  ( -1.000000000000000000, -0.000000000000000000, -0.000000000000000000 ) ) ;
#121 = ORIENTED_EDGE ( 'NONE', *, *, #307, .F. ) ;
#122 = DIRECTION ( 'NONE',  ( 1.000000000000000000, 0.000000000000000000, 0.000000000000000000 ) ) ;
#123 = AXIS2_PLACEMENT_3D ( 'NONE', #185, #160, #239 ) ;
#124 = EDGE_CURVE ( 'NONE', #322, #326, #110, .T. ) ;
#125 = ORIENTED_EDGE ( 'NONE', *, *, #247, .T. ) ;
#126 = VECTOR ( 'NONE', #170, 1000.000000000000000 ) ;
#127 = PERSON_AND_ORGANIZATION ( #18, #153 ) ;
#128 = ORIENTED_EDGE ( 'NONE', *, *, #104, .F. ) ;
#129 = CC_DESIGN_PERSON_AND_ORGANIZATION_ASSIGNMENT ( #294, #296, ( #200 ) ) ;
#130 = DIRECTION ( 'NONE',  ( 1.000000000000000000, 0.000000000000000000, 0.000000000000000000 ) ) ;
#131 = FACE_OUTER_BOUND ( 'NONE', #95, .T. ) ;
#132 = VERTEX_POINT ( 'NONE', #142 ) ;
#133 = APPLICATION_CONTEXT ( 'configuration controlled 3d designs of mechanical parts and assemblies' ) ;
#134 = CC_DESIGN_PERSON_AND_ORGANIZATION_ASSIGNMENT ( #291, #289, ( #334 ) ) ;
#135 = FACE_OUTER_BOUND ( 'NONE', #147, .T. ) ;
#136 = DIRECTION ( 'NONE',  ( 0.000000000000000000, 0.000000000000000000, 1.000000000000000000 ) ) ;
#137 = CARTESIAN_POINT ( 'NONE',  ( 3.000000000000000000, 1.555301434917138433E-15, -12.69999999999999929 ) ) ;
#138 = CARTESIAN_POINT ( 'NONE',  ( 2.500000000000000888, 0.000000000000000000, 0.000000000000000000 ) ) ;
#139 = VECTOR ( 'NONE', #183, 1000.000000000000000 ) ;
#140 = DATE_TIME_ROLE ( 'creation_date' ) ;
#141 = APPROVAL_PERSON_ORGANIZATION ( #192, #198, #165 ) ;
#142 = CARTESIAN_POINT ( 'NONE',  ( 2.500000000000000888, 0.000000000000000000, 10.00000000000000000 ) ) ;
#143 = DIRECTION ( 'NONE',  ( -1.000000000000000000, -0.000000000000000000, -0.000000000000000000 ) ) ;
#144 = EDGE_LOOP ( 'NONE', ( #273, #175 ) ) ;
#145 = AXIS2_PLACEMENT_3D ( 'NONE', #311, #77, #76 ) ;
#146 = CARTESIAN_POINT ( 'NONE',  ( -3.000000000000000444, 1.224646799147353256E-15, -10.00000000000000000 ) ) ;
#147 = EDGE_LOOP ( 'NONE', ( #282, #125 ) ) ;
#148 = CARTESIAN_POINT ( 'NONE',  ( -2.500000000000000444, 0.000000000000000000, 10.00000000000000000 ) ) ;
#149 = ORIENTED_EDGE ( 'NONE', *, *, #281, .T. ) ;
#150 = PRODUCT_DEFINITION ( 'UNKNOWN', '', #200, #308 ) ;
#151 = ORIENTED_EDGE ( 'NONE', *, *, #21, .F. ) ;
#152 = DIRECTION ( 'NONE',  ( -1.000000000000000000, -0.000000000000000000, -0.000000000000000000 ) ) ;
#153 = ORGANIZATION ( 'UNSPECIFIED', 'UNSPECIFIED', '' ) ;
#154 = LINE ( 'NONE', #306, #139 ) ;
#155 = CYLINDRICAL_SURFACE ( 'NONE', #222, 12.69999999999999929 ) ;
#156 = AXIS2_PLACEMENT_3D ( 'NONE', #275, #321, #87 ) ;
#157 = DIRECTION ( 'NONE',  ( 0.000000000000000000, 0.000000000000000000, -1.000000000000000000 ) ) ;
#158 = ADVANCED_FACE ( 'NONE', ( #211, #135 ), #49, .F. ) ;
#159 = ADVANCED_FACE ( 'NONE', ( #267 ), #286, .T. ) ;
#160 = DIRECTION ( 'NONE',  ( -1.000000000000000000, 0.000000000000000000, -0.000000000000000000 ) ) ;
#161 = CYLINDRICAL_SURFACE ( 'NONE', #204, 10.00000000000000000 ) ;
#162 = DATE_AND_TIME ( #109, #194 ) ;
#163 = FACE_OUTER_BOUND ( 'NONE', #254, .T. ) ;
#164 = CC_DESIGN_DATE_AND_TIME_ASSIGNMENT ( #270, #212, ( #334 ) ) ;
#165 = APPROVAL_ROLE ( '' ) ;
#166 = DIRECTION ( 'NONE',  ( 0.000000000000000000, 0.000000000000000000, 1.000000000000000000 ) ) ;
#167 = DATE_AND_TIME ( #245, #169 ) ;
#168 = EDGE_CURVE ( 'NONE', #132, #8, #56, .T. ) ;
#169 = LOCAL_TIME ( 17, 8, 5.000000000000000000, #19 ) ;
#170 = DIRECTION ( 'NONE',  ( -1.000000000000000000, -0.000000000000000000, -0.000000000000000000 ) ) ;
#171 = ORIENTED_EDGE ( 'NONE', *, *, #21, .T. ) ;
#172 = CARTESIAN_POINT ( 'NONE',  ( -3.000000000000000444, 0.000000000000000000, 0.000000000000000000 ) ) ;
#173 = ORIENTED_EDGE ( 'NONE', *, *, #116, .T. ) ;
#174 = CC_DESIGN_APPROVAL ( #251, ( #200 ) ) ;
#175 = ORIENTED_EDGE ( 'NONE', *, *, #116, .F. ) ;
#176 = APPLICATION_PROTOCOL_DEFINITION ( 'international standard', 'config_control_design', 1994, #133 ) ;
#177 = CYLINDRICAL_SURFACE ( 'NONE', #7, 10.00000000000000000 ) ;
#178 = PERSON_AND_ORGANIZATION ( #18, #153 ) ;
#179 = CLOSED_SHELL ( 'NONE', ( #34, #60, #302, #324, #224, #89, #158, #159, #84, #332 ) ) ;
#180 = PLANE ( 'NONE',  #123 ) ;
#181 = AXIS2_PLACEMENT_3D ( 'NONE', #330, #74, #122 ) ;
#182 = ORIENTED_EDGE ( 'NONE', *, *, #259, .T. ) ;
#183 = DIRECTION ( 'NONE',  ( -1.000000000000000000, -0.000000000000000000, -0.000000000000000000 ) ) ;
#184 = DIRECTION ( 'NONE',  ( -1.000000000000000000, -0.000000000000000000, -0.000000000000000000 ) ) ;
#185 = CARTESIAN_POINT ( 'NONE',  ( 2.999999999999999112, 12.69999999999999929, 0.000000000000000000 ) ) ;
#186 = CC_DESIGN_DATE_AND_TIME_ASSIGNMENT ( #167, #140, ( #150 ) ) ;
#187 = DIRECTION ( 'NONE',  ( -1.000000000000000000, -0.000000000000000000, -0.000000000000000000 ) ) ;
#188 = AXIS2_PLACEMENT_3D ( 'NONE', #62, #250, #32 ) ;
#189 = DIRECTION ( 'NONE',  ( 0.000000000000000000, 0.000000000000000000, 1.000000000000000000 ) ) ;
#190 = APPROVAL_STATUS ( 'not_yet_approved' ) ;
#191 = CARTESIAN_POINT ( 'NONE',  ( -1.614212418857619014, 0.000000000000000000, 10.00000000000000000 ) ) ;
#192 = PERSON_AND_ORGANIZATION ( #18, #153 ) ;
#193 = APPROVAL ( #256, 'UNSPECIFIED' ) ;
#194 = LOCAL_TIME ( 17, 8, 5.000000000000000000, #24 ) ;
#195 = ORIENTED_EDGE ( 'NONE', *, *, #213, .F. ) ;
#196 = LINE ( 'NONE', #12, #126 ) ;
#197 = ORIENTED_EDGE ( 'NONE', *, *, #268, .T. ) ;
#198 = APPROVAL ( #318, 'UNSPECIFIED' ) ;
#199 = ORIENTED_EDGE ( 'NONE', *, *, #277, .T. ) ;
#200 = PRODUCT_DEFINITION_FORMATION_WITH_SPECIFIED_SOURCE ( 'ANY', '', #37, .NOT_KNOWN. ) ;
#201 = EDGE_LOOP ( 'NONE', ( #151, #59, #98, #257 ) ) ;
#202 = CALENDAR_DATE ( 2020, 22, 12 ) ;
#203 = FACE_OUTER_BOUND ( 'NONE', #208, .T. ) ;
#204 = AXIS2_PLACEMENT_3D ( 'NONE', #218, #293, #136 ) ;
#205 = VECTOR ( 'NONE', #214, 1000.000000000000000 ) ;
#206 = ORIENTED_EDGE ( 'NONE', *, *, #292, .F. ) ;
#207 = APPLICATION_PROTOCOL_DEFINITION ( 'international standard', 'config_control_design', 1994, #238 ) ;
#208 = EDGE_LOOP ( 'NONE', ( #209, #285 ) ) ;
#209 = ORIENTED_EDGE ( 'NONE', *, *, #217, .F. ) ;
#210 = DIRECTION ( 'NONE',  ( -1.000000000000000000, -0.000000000000000000, -0.000000000000000000 ) ) ;
#211 = FACE_BOUND ( 'NONE', #144, .T. ) ;
#212 = DATE_TIME_ROLE ( 'classification_date' ) ;
#213 = EDGE_CURVE ( 'NONE', #235, #274, #40, .T. ) ;
#214 = DIRECTION ( 'NONE',  ( -1.000000000000000000, -0.000000000000000000, -0.000000000000000000 ) ) ;
#215 = DATE_AND_TIME ( #314, #102 ) ;
#216 = AXIS2_PLACEMENT_3D ( 'NONE', #108, #269, #246 ) ;
#217 = EDGE_CURVE ( 'NONE', #65, #227, #279, .T. ) ;
#218 = CARTESIAN_POINT ( 'NONE',  ( -1.614212418857619014, 0.000000000000000000, 0.000000000000000000 ) ) ;
#219 = DIRECTION ( 'NONE',  ( 0.000000000000000000, 0.000000000000000000, 1.000000000000000000 ) ) ;
#220 = PERSON_AND_ORGANIZATION_ROLE ( 'design_supplier' ) ;
#221 = CARTESIAN_POINT ( 'NONE',  ( -3.000000000000000444, 0.000000000000000000, 10.00000000000000000 ) ) ;
#222 = AXIS2_PLACEMENT_3D ( 'NONE', #261, #152, #233 ) ;
#223 =( LENGTH_UNIT ( ) NAMED_UNIT ( * ) SI_UNIT ( .MILLI., .METRE. ) );
#224 = ADVANCED_FACE ( 'NONE', ( #163 ), #51, .F. ) ;
#225 = CARTESIAN_POINT ( 'NONE',  ( -3.000000000000000000, 1.555301434917138433E-15, -12.69999999999999929 ) ) ;
#226 = UNCERTAINTY_MEASURE_WITH_UNIT (LENGTH_MEASURE( 1.000000000000000082E-05 ), #223, 'distance_accuracy_value', 'NONE');
#227 = VERTEX_POINT ( 'NONE', #137 ) ;
#228 =( NAMED_UNIT ( * ) SI_UNIT ( $, .STERADIAN. ) SOLID_ANGLE_UNIT ( ) );
#229 = CC_DESIGN_APPROVAL ( #198, ( #334 ) ) ;
#230 = MECHANICAL_CONTEXT ( 'NONE', #133, 'mechanical' ) ;
#231 = PRODUCT_RELATED_PRODUCT_CATEGORY ( 'detail', '', ( #37 ) ) ;
#232 = ORIENTED_EDGE ( 'NONE', *, *, #292, .T. ) ;
#233 = DIRECTION ( 'NONE',  ( 0.000000000000000000, 0.000000000000000000, 1.000000000000000000 ) ) ;
#234 = CIRCLE ( 'NONE', #4, 12.69999999999999929 ) ;
#235 = VERTEX_POINT ( 'NONE', #242 ) ;
#236 = FACE_OUTER_BOUND ( 'NONE', #329, .T. ) ;
#237 = ORIENTED_EDGE ( 'NONE', *, *, #328, .F. ) ;
#238 = APPLICATION_CONTEXT ( 'configuration controlled 3d designs of mechanical parts and assemblies' ) ;
#239 = DIRECTION ( 'NONE',  ( -0.000000000000000000, 0.000000000000000000, 1.000000000000000000 ) ) ;
#240 = EDGE_CURVE ( 'NONE', #65, #322, #1, .T. ) ;
#241 = CALENDAR_DATE ( 2020, 22, 12 ) ;
#242 = CARTESIAN_POINT ( 'NONE',  ( 2.999999999999999112, 0.000000000000000000, 10.00000000000000000 ) ) ;
#243 = DIRECTION ( 'NONE',  ( 0.000000000000000000, 0.000000000000000000, -1.000000000000000000 ) ) ;
#244 = CIRCLE ( 'NONE', #47, 10.00000000000000000 ) ;
#245 = CALENDAR_DATE ( 2020, 22, 12 ) ;
#246 = DIRECTION ( 'NONE',  ( 0.000000000000000000, 0.000000000000000000, 1.000000000000000000 ) ) ;
#247 = EDGE_CURVE ( 'NONE', #326, #322, #234, .T. ) ;
#248 = APPROVAL_DATE_TIME ( #215, #251 ) ;
#249 = DIRECTION ( 'NONE',  ( 0.000000000000000000, 0.000000000000000000, -1.000000000000000000 ) ) ;
#250 = DIRECTION ( 'NONE',  ( -1.000000000000000000, 0.000000000000000000, -0.000000000000000000 ) ) ;
#251 = APPROVAL ( #190, 'UNSPECIFIED' ) ;
#252 = LINE ( 'NONE', #90, #260 ) ;
#253 = LINE ( 'NONE', #118, #14 ) ;
#254 = EDGE_LOOP ( 'NONE', ( #88, #195, #99, #46 ) ) ;
#255 = CARTESIAN_POINT ( 'NONE',  ( -1.614212418857619014, 0.000000000000000000, 0.000000000000000000 ) ) ;
#256 = APPROVAL_STATUS ( 'not_yet_approved' ) ;
#257 = ORIENTED_EDGE ( 'NONE', *, *, #247, .F. ) ;
#258 = DIRECTION ( 'NONE',  ( -1.000000000000000000, -0.000000000000000000, -0.000000000000000000 ) ) ;
#259 = EDGE_CURVE ( 'NONE', #8, #132, #42, .T. ) ;
#260 = VECTOR ( 'NONE', #10, 1000.000000000000000 ) ;
#261 = CARTESIAN_POINT ( 'NONE',  ( -1.614212418857619014, 0.000000000000000000, 0.000000000000000000 ) ) ;
#262 = DIRECTION ( 'NONE',  ( 0.000000000000000000, 0.000000000000000000, 1.000000000000000000 ) ) ;
#263 = AXIS2_PLACEMENT_3D ( 'NONE', #29, #287, #262 ) ;
#264 = CC_DESIGN_SECURITY_CLASSIFICATION ( #334, ( #200 ) ) ;
#265 = DIRECTION ( 'NONE',  ( 0.000000000000000000, 0.000000000000000000, 1.000000000000000000 ) ) ;
#266 = SHAPE_DEFINITION_REPRESENTATION ( #41, #64 ) ;
#267 = FACE_OUTER_BOUND ( 'NONE', #201, .T. ) ;
#268 = EDGE_CURVE ( 'NONE', #274, #8, #252, .T. ) ;
#269 = DIRECTION ( 'NONE',  ( -1.000000000000000000, -0.000000000000000000, -0.000000000000000000 ) ) ;
#270 = DATE_AND_TIME ( #241, #111 ) ;
#271 = AXIS2_PLACEMENT_3D ( 'NONE', #138, #184, #189 ) ;
#272 = DIRECTION ( 'NONE',  ( 0.000000000000000000, 0.000000000000000000, 1.000000000000000000 ) ) ;
#273 = ORIENTED_EDGE ( 'NONE', *, *, #277, .F. ) ;
#274 = VERTEX_POINT ( 'NONE', #57 ) ;
#275 = CARTESIAN_POINT ( 'NONE',  ( -2.500000000000000444, 0.000000000000000000, 0.000000000000000000 ) ) ;
#276 = VERTEX_POINT ( 'NONE', #146 ) ;
#277 = EDGE_CURVE ( 'NONE', #304, #276, #244, .T. ) ;
#278 = DIRECTION ( 'NONE',  ( -1.000000000000000000, -0.000000000000000000, -0.000000000000000000 ) ) ;
#279 = CIRCLE ( 'NONE', #145, 12.69999999999999929 ) ;
#280 = VERTEX_POINT ( 'NONE', #148 ) ;
#281 = EDGE_CURVE ( 'NONE', #15, #276, #253, .T. ) ;
#282 = ORIENTED_EDGE ( 'NONE', *, *, #124, .T. ) ;
#283 = EDGE_LOOP ( 'NONE', ( #323, #67 ) ) ;
#284 = APPROVAL_PERSON_ORGANIZATION ( #28, #251, #79 ) ;
#285 = ORIENTED_EDGE ( 'NONE', *, *, #55, .F. ) ;
#286 = CYLINDRICAL_SURFACE ( 'NONE', #101, 12.69999999999999929 ) ;
#287 = DIRECTION ( 'NONE',  ( -1.000000000000000000, -0.000000000000000000, -0.000000000000000000 ) ) ;
#288 = APPROVAL_DATE_TIME ( #162, #198 ) ;
#289 = PERSON_AND_ORGANIZATION_ROLE ( 'classification_officer' ) ;
#290 = DIRECTION ( 'NONE',  ( -1.000000000000000000, -0.000000000000000000, -0.000000000000000000 ) ) ;
#291 = PERSON_AND_ORGANIZATION ( #18, #153 ) ;
#292 = EDGE_CURVE ( 'NONE', #280, #304, #196, .T. ) ;
#293 = DIRECTION ( 'NONE',  ( -1.000000000000000000, -0.000000000000000000, -0.000000000000000000 ) ) ;
#294 = PERSON_AND_ORGANIZATION ( #18, #153 ) ;
#295 = DIRECTION ( 'NONE',  ( 1.000000000000000000, 0.000000000000000000, 0.000000000000000000 ) ) ;
#296 = PERSON_AND_ORGANIZATION_ROLE ( 'creator' ) ;
#297 = AXIS2_PLACEMENT_3D ( 'NONE', #3, #26, #317 ) ;
#298 = DIRECTION ( 'NONE',  ( -1.000000000000000000, -0.000000000000000000, -0.000000000000000000 ) ) ;
#299 = ORIENTED_EDGE ( 'NONE', *, *, #213, .T. ) ;
#300 = FACE_OUTER_BOUND ( 'NONE', #283, .T. ) ;
#301 = EDGE_LOOP ( 'NONE', ( #121, #13 ) ) ;
#302 = ADVANCED_FACE ( 'NONE', ( #92 ), #117, .F. ) ;
#303 = FACE_OUTER_BOUND ( 'NONE', #301, .T. ) ;
#304 = VERTEX_POINT ( 'NONE', #221 ) ;
#305 = DATE_AND_TIME ( #202, #9 ) ;
#306 = CARTESIAN_POINT ( 'NONE',  ( -1.614212418857619014, 1.555301434917138433E-15, -12.69999999999999929 ) ) ;
#307 = EDGE_CURVE ( 'NONE', #280, #15, #58, .T. ) ;
#308 = DESIGN_CONTEXT ( 'detailed design', #238, 'design' ) ;
#309 = ORIENTED_EDGE ( 'NONE', *, *, #307, .T. ) ;
#310 = AXIS2_PLACEMENT_3D ( 'NONE', #103, #23, #105 ) ;
#311 = CARTESIAN_POINT ( 'NONE',  ( 3.000000000000000000, 0.000000000000000000, 0.000000000000000000 ) ) ;
#312 = CC_DESIGN_PERSON_AND_ORGANIZATION_ASSIGNMENT ( #127, #70, ( #37 ) ) ;
#313 = CARTESIAN_POINT ( 'NONE',  ( -1.614212418857619014, 0.000000000000000000, 0.000000000000000000 ) ) ;
#314 = CALENDAR_DATE ( 2020, 22, 12 ) ;
#315 = CIRCLE ( 'NONE', #216, 10.00000000000000000 ) ;
#316 = CARTESIAN_POINT ( 'NONE',  ( -3.000000000000000000, 0.000000000000000000, 0.000000000000000000 ) ) ;
#317 = DIRECTION ( 'NONE',  ( 0.000000000000000000, 0.000000000000000000, 1.000000000000000000 ) ) ;
#318 = APPROVAL_STATUS ( 'not_yet_approved' ) ;
#319 = PLANE ( 'NONE',  #188 ) ;
#320 = COORDINATED_UNIVERSAL_TIME_OFFSET ( 8, 0, .AHEAD. ) ;
#321 = DIRECTION ( 'NONE',  ( 1.000000000000000000, 0.000000000000000000, 0.000000000000000000 ) ) ;
#322 = VERTEX_POINT ( 'NONE', #61 ) ;
#323 = ORIENTED_EDGE ( 'NONE', *, *, #168, .F. ) ;
#324 = ADVANCED_FACE ( 'NONE', ( #300 ), #319, .F. ) ;
#325 = PERSON_AND_ORGANIZATION ( #18, #153 ) ;
#326 = VERTEX_POINT ( 'NONE', #225 ) ;
#327 = CARTESIAN_POINT ( 'NONE',  ( 3.000000000000000000, 0.000000000000000000, 12.69999999999999929 ) ) ;
#328 = EDGE_CURVE ( 'NONE', #235, #132, #31, .T. ) ;
#329 = EDGE_LOOP ( 'NONE', ( #309, #149, #173, #206 ) ) ;
#330 = CARTESIAN_POINT ( 'NONE',  ( 0.000000000000000000, 0.000000000000000000, 0.000000000000000000 ) ) ;
#331 = CARTESIAN_POINT ( 'NONE',  ( 3.000000000000000000, 0.000000000000000000, 0.000000000000000000 ) ) ;
#332 = ADVANCED_FACE ( 'NONE', ( #303 ), #85, .F. ) ;
#333 = CIRCLE ( 'NONE', #263, 10.00000000000000000 ) ;
#334 = SECURITY_CLASSIFICATION ( '', '', #114 ) ;
#335 = FACE_OUTER_BOUND ( 'NONE', #100, .T. ) ;
ENDSEC;
END-ISO-10303-21;
